  0
SECTION
  2
HEADER
  9
$ACADVER
  1
AC1015
  9
$ACADMAINTVER
 70
     6
  9
$DWGCODEPAGE
  3
ANSI_1254
  9
$INSBASE
 10
0.0
 20
0.0
 30
0.0
  9
$EXTMIN
 10
0.0
 20
0.0
 30
0.0
  9
$EXTMAX
 10
279.4
 20
215.9
 30
0.0
  9
$LIMMIN
 10
0.0
 20
0.0
  9
$LIMMAX
 10
279.4
 20
215.9
  9
$ORTHOMODE
 70
     0
  9
$REGENMODE
 70
     1
  9
$FILLMODE
 70
     1
  9
$QTEXTMODE
 70
     0
  9
$MIRRTEXT
 70
     1
  9
$LTSCALE
 40
1.0
  9
$ATTMODE
 70
     1
  9
$TEXTSIZE
 40
3.5
  9
$TRACEWID
 40
1.0
  9
$TEXTSTYLE
  7
Standard
  9
$CLAYER
  8
0
  9
$CELTYPE
  6
ByLayer
  9
$CECOLOR
 62
   256
  9
$CELTSCALE
 40
1.0
  9
$DISPSILH
 70
     0
  9
$DIMSCALE
 40
1.0
  9
$DIMASZ
 40
3.5
  9
$DIMEXO
 40
1.0
  9
$DIMDLI
 40
3.75
  9
$DIMRND
 40
0.0
  9
$DIMDLE
 40
0.0
  9
$DIMEXE
 40
1.0
  9
$DIMTP
 40
0.0
  9
$DIMTM
 40
0.0
  9
$DIMTXT
 40
3.5
  9
$DIMCEN
 40
2.5
  9
$DIMTSZ
 40
0.0
  9
$DIMTOL
 70
     0
  9
$DIMLIM
 70
     0
  9
$DIMTIH
 70
     1
  9
$DIMTOH
 70
     1
  9
$DIMSE1
 70
     0
  9
$DIMSE2
 70
     0
  9
$DIMTAD
 70
     1
  9
$DIMZIN
 70
     0
  9
$DIMBLK
  1

  9
$DIMASO
 70
     1
  9
$DIMSHO
 70
     1
  9
$DIMPOST
  1

  9
$DIMAPOST
  1

  9
$DIMALT
 70
     0
  9
$DIMALTD
 70
     3
  9
$DIMALTF
 40
0.0393700787
  9
$DIMLFAC
 40
1.0
  9
$DIMTOFL
 70
     1
  9
$DIMTVP
 40
0.0
  9
$DIMTIX
 70
     0
  9
$DIMSOXD
 70
     0
  9
$DIMSAH
 70
     0
  9
$DIMBLK1
  1

  9
$DIMBLK2
  1

  9
$DIMSTYLE
  2
ISO-25
  9
$DIMCLRD
 70
     0
  9
$DIMCLRE
 70
     0
  9
$DIMCLRT
 70
     0
  9
$DIMTFAC
 40
1.0
  9
$DIMGAP
 40
1.524
  9
$DIMJUST
 70
     0
  9
$DIMSD1
 70
     0
  9
$DIMSD2
 70
     0
  9
$DIMTOLJ
 70
     0
  9
$DIMTZIN
 70
     0
  9
$DIMALTZ
 70
     0
  9
$DIMALTTZ
 70
     0
  9
$DIMUPT
 70
     0
  9
$DIMDEC
 70
     2
  9
$DIMTDEC
 70
     2
  9
$DIMALTU
 70
     2
  9
$DIMALTTD
 70
     3
  9
$DIMTXSTY
  7
Standard
  9
$DIMAUNIT
 70
     0
  9
$DIMADEC
 70
     2
  9
$DIMALTRND
 40
0.0
  9
$DIMAZIN
 70
     0
  9
$DIMDSEP
 70
    44
  9
$DIMATFIT
 70
     3
  9
$DIMFRAC
 70
     0
  9
$DIMLDRBLK
  1

  9
$DIMLUNIT
 70
     2
  9
$DIMLWD
 70
    -2
  9
$DIMLWE
 70
    -2
  9
$DIMTMOVE
 70
     0
  9
$LUNITS
 70
     2
  9
$LUPREC
 70
     2
  9
$SKETCHINC
 40
1.0
  9
$FILLETRAD
 40
10.0
  9
$AUNITS
 70
     0
  9
$AUPREC
 70
     2
  9
$MENU
  1
.
  9
$ELEVATION
 40
0.0
  9
$PELEVATION
 40
0.0
  9
$THICKNESS
 40
0.0
  9
$LIMCHECK
 70
     0
  9
$CHAMFERA
 40
0.0
  9
$CHAMFERB
 40
0.0
  9
$CHAMFERC
 40
0.0
  9
$CHAMFERD
 40
0.0
  9
$SKPOLY
 70
     0
  9
$TDCREATE
 40
2458985.654474248
  9
$TDUCREATE
 40
2458985.529474248
  9
$TDUPDATE
 40
2458985.654474583
  9
$TDUUPDATE
 40
2458985.529474583
  9
$TDINDWG
 40
0.0000000116
  9
$TDUSRTIMER
 40
0.0000000116
  9
$USRTIMER
 70
     1
  9
$ANGBASE
 50
0.0
  9
$ANGDIR
 70
     0
  9
$PDMODE
 70
     0
  9
$PDSIZE
 40
-1.0
  9
$PLINEWID
 40
0.0
  9
$SPLFRAME
 70
     0
  9
$SPLINETYPE
 70
     6
  9
$SPLINESEGS
 70
     8
  9
$HANDSEED
  5
C0
  9
$SURFTAB1
 70
     6
  9
$SURFTAB2
 70
     6
  9
$SURFTYPE
 70
     6
  9
$SURFU
 70
     6
  9
$SURFV
 70
     6
  9
$UCSBASE
  2

  9
$UCSNAME
  2

  9
$UCSORG
 10
0.0
 20
0.0
 30
0.0
  9
$UCSXDIR
 10
1.0
 20
0.0
 30
0.0
  9
$UCSYDIR
 10
0.0
 20
1.0
 30
0.0
  9
$UCSORTHOREF
  2

  9
$UCSORTHOVIEW
 70
     0
  9
$UCSORGTOP
 10
0.0
 20
0.0
 30
0.0
  9
$UCSORGBOTTOM
 10
0.0
 20
0.0
 30
0.0
  9
$UCSORGLEFT
 10
0.0
 20
0.0
 30
0.0
  9
$UCSORGRIGHT
 10
0.0
 20
0.0
 30
0.0
  9
$UCSORGFRONT
 10
0.0
 20
0.0
 30
0.0
  9
$UCSORGBACK
 10
0.0
 20
0.0
 30
0.0
  9
$PUCSBASE
  2

  9
$PUCSNAME
  2

  9
$PUCSORG
 10
0.0
 20
0.0
 30
0.0
  9
$PUCSXDIR
 10
1.0
 20
0.0
 30
0.0
  9
$PUCSYDIR
 10
0.0
 20
1.0
 30
0.0
  9
$PUCSORTHOREF
  2

  9
$PUCSORTHOVIEW
 70
     0
  9
$PUCSORGTOP
 10
0.0
 20
0.0
 30
0.0
  9
$PUCSORGBOTTOM
 10
0.0
 20
0.0
 30
0.0
  9
$PUCSORGLEFT
 10
0.0
 20
0.0
 30
0.0
  9
$PUCSORGRIGHT
 10
0.0
 20
0.0
 30
0.0
  9
$PUCSORGFRONT
 10
0.0
 20
0.0
 30
0.0
  9
$PUCSORGBACK
 10
0.0
 20
0.0
 30
0.0
  9
$USERI1
 70
     0
  9
$USERI2
 70
     0
  9
$USERI3
 70
     0
  9
$USERI4
 70
     0
  9
$USERI5
 70
     0
  9
$USERR1
 40
0.0
  9
$USERR2
 40
0.0
  9
$USERR3
 40
0.0
  9
$USERR4
 40
0.0
  9
$USERR5
 40
0.0
  9
$WORLDVIEW
 70
     1
  9
$SHADEDGE
 70
     3
  9
$SHADEDIF
 70
    70
  9
$TILEMODE
 70
     1
  9
$MAXACTVP
 70
    64
  9
$PINSBASE
 10
0.0
 20
0.0
 30
0.0
  9
$PLIMCHECK
 70
     0
  9
$PEXTMIN
 10
1.0000000000E+20
 20
1.0000000000E+20
 30
1.0000000000E+20
  9
$PEXTMAX
 10
-1.0000000000E+20
 20
-1.0000000000E+20
 30
-1.0000000000E+20
  9
$PLIMMIN
 10
0.0
 20
0.0
  9
$PLIMMAX
 10
420.0
 20
297.0
  9
$UNITMODE
 70
     0
  9
$VISRETAIN
 70
     1
  9
$PLINEGEN
 70
     0
  9
$PSLTSCALE
 70
     1
  9
$TREEDEPTH
 70
  3020
  9
$CMLSTYLE
  2
Standard
  9
$CMLJUST
 70
     0
  9
$CMLSCALE
 40
20.0
  9
$PROXYGRAPHICS
 70
     1
  9
$MEASUREMENT
 70
     1
  9
$CELWEIGHT
370
    -1
  9
$ENDCAPS
280
     0
  9
$JOINSTYLE
280
     0
  9
$LWDISPLAY
290
     1
  9
$INSUNITS
 70
     4
  9
$HYPERLINKBASE
  1

  9
$STYLESHEET
  1

  9
$XEDIT
290
     1
  9
$CEPSNTYPE
380
     0
  9
$PSTYLEMODE
290
     1
  9
$FINGERPRINTGUID
  2
{a49123ee-2c3f-4ba5-9e26-33ac9022f85c}
  9
$VERSIONGUID
  2
{FAEB1C32-E019-11D5-929B-00C0DF256EC4}
  9
$EXTNAMES
290
     1
  9
$PSVPSCALE
 40
0.0
  9
$OLESTARTUP
290
     0
  0
ENDSEC
  0
SECTION
  2
CLASSES
  0
CLASS
  1
ACDBDICTIONARYWDFLT
  2
AcDbDictionaryWithDefault
  3
ObjectDBX Classes
 90
        0
280
     0
281
     0
  0
CLASS
  1
VISUALSTYLE
  2
AcDbVisualStyle
  3
ObjectDBX Classes
 90
     4095
280
     0
281
     0
  0
CLASS
  1
MATERIAL
  2
AcDbMaterial
  3
ObjectDBX Classes
 90
     1153
280
     0
281
     0
  0
CLASS
  1
SCALE
  2
AcDbScale
  3
ObjectDBX Classes
 90
     1153
280
     0
281
     0
  0
CLASS
  1
TABLESTYLE
  2
AcDbTableStyle
  3
ObjectDBX Classes
 90
     4095
280
     0
281
     0
  0
CLASS
  1
MLEADERSTYLE
  2
AcDbMLeaderStyle
  3
ACDB_MLEADERSTYLE_CLASS
 90
     4095
280
     0
281
     0
  0
CLASS
  1
SUN
  2
AcDbSun
  3
SCENEOE
 90
     1153
280
     0
281
     0
  0
CLASS
  1
ACDBPLACEHOLDER
  2
AcDbPlaceHolder
  3
ObjectDBX Classes
 90
        0
280
     0
281
     0
  0
CLASS
  1
LAYOUT
  2
AcDbLayout
  3
ObjectDBX Classes
 90
        0
280
     0
281
     0
  0
ENDSEC
  0
SECTION
  2
TABLES
  0
TABLE
  2
VPORT
  5
8
330
0
100
AcDbSymbolTable
 70
     1
  0
VPORT
  5
29
330
8
100
AcDbSymbolTableRecord
100
AcDbViewportTableRecord
  2
*Active
 70
     0
 10
0.0
 20
0.0
 11
1.0
 21
1.0
 12
139.7
 22
107.95
 13
0.0
 23
0.0
 14
10.0
 24
10.0
 15
10.0
 25
10.0
 16
0.0
 26
0.0
 36
1.0
 17
0.0
 27
0.0
 37
0.0
 40
215.9
 41
1.2941176471
 42
50.0
 43
0.0
 44
0.0
 50
0.0
 51
0.0
 71
     0
 72
  2000
 73
     1
 74
     3
 75
     0
 76
     0
 77
     0
 78
     0
281
     0
 65
     1
110
0.0
120
0.0
130
0.0
111
1.0
121
0.0
131
0.0
112
0.0
122
1.0
132
0.0
 79
     0
146
0.0
  0
ENDTAB
  0
TABLE
  2
LTYPE
  5
5
330
0
100
AcDbSymbolTable
 70
     6
  0
LTYPE
  5
14
330
5
100
AcDbSymbolTableRecord
100
AcDbLinetypeTableRecord
  2
ByBlock
 70
     0
  3

 72
    65
 73
     0
 40
0.0
  0
LTYPE
  5
15
330
5
100
AcDbSymbolTableRecord
100
AcDbLinetypeTableRecord
  2
ByLayer
 70
     0
  3

 72
    65
 73
     0
 40
0.0
  0
LTYPE
  5
16
330
5
100
AcDbSymbolTableRecord
100
AcDbLinetypeTableRecord
  2
Continuous
 70
     0
  3
Solid line
 72
    65
 73
     0
 40
0.0
  0
LTYPE
  5
6E
330
5
100
AcDbSymbolTableRecord
100
AcDbLinetypeTableRecord
  2
HIDDEN
 70
     0
  3
Hidden __ __ __ __ __ __ __ __ __ __ __ __ __ __
 72
    65
 73
     2
 40
1.905
 49
1.27
 74
     0
 49
-0.635
 74
     0
  0
LTYPE
  5
6F
330
5
100
AcDbSymbolTableRecord
100
AcDbLinetypeTableRecord
  2
PHANTOM
 70
     0
  3
Phantom ______  __  __  ______  __  __  ______
 72
    65
 73
     6
 40
12.7
 49
6.35
 74
     0
 49
-1.27
 74
     0
 49
1.27
 74
     0
 49
-1.27
 74
     0
 49
1.27
 74
     0
 49
-1.27
 74
     0
  0
LTYPE
  5
70
330
5
100
AcDbSymbolTableRecord
100
AcDbLinetypeTableRecord
  2
CENTER
 70
     0
  3
Center ____ _ ____ _ ____ _ ____ _ ____ _ ____
 72
    65
 73
     4
 40
10.16
 49
6.35
 74
     0
 49
-1.27
 74
     0
 49
1.27
 74
     0
 49
-1.27
 74
     0
  0
LTYPE
  5
71
330
5
100
AcDbSymbolTableRecord
100
AcDbLinetypeTableRecord
  2
CENTERX2
 70
     0
  3
Center (2x) ________  __  ________  __  _____
 72
    65
 73
     4
 40
20.32
 49
12.7
 74
     0
 49
-2.54
 74
     0
 49
2.54
 74
     0
 49
-2.54
 74
     0
  0
LTYPE
  5
72
330
5
100
AcDbSymbolTableRecord
100
AcDbLinetypeTableRecord
  2
DOT2
 70
     0
  3
Dot (.5x) ........................................
 72
    65
 73
     2
 40
0.635
 49
0.0
 74
     0
 49
-0.635
 74
     0
  0
ENDTAB
  0
TABLE
  2
LAYER
  5
2
330
0
100
AcDbSymbolTable
 70
    17
  0
LAYER
  5
10
330
2
100
AcDbSymbolTableRecord
100
AcDbLayerTableRecord
  2
0
 70
     0
 62
     7
  6
Continuous
370
    -3
390
F
  0
LAYER
  5
73
330
2
100
AcDbSymbolTableRecord
100
AcDbLayerTableRecord
  2
FORMAT
 70
     0
 62
     7
  6
Continuous
370
    -3
390
F
  0
LAYER
  5
74
330
2
100
AcDbSymbolTableRecord
100
AcDbLayerTableRecord
  2
YARDIMCI_GEOMETRI
 70
     0
 62
    -6
  6
Continuous
290
     0
370
    -3
390
F
  0
LAYER
  5
75
330
2
100
AcDbSymbolTableRecord
100
AcDbLayerTableRecord
  2
SAYFA_CERCEVESI
 70
     0
 62
     7
  6
Continuous
370
    25
390
F
  0
LAYER
  5
76
330
2
100
AcDbSymbolTableRecord
100
AcDbLayerTableRecord
  2
ANTET
 70
     0
 62
     7
  6
Continuous
370
    -3
390
F
  0
LAYER
  5
77
330
2
100
AcDbSymbolTableRecord
100
AcDbLayerTableRecord
  2
OLCU
 70
     0
 62
   150
  6
Continuous
370
    -3
390
F
  0
LAYER
  5
78
330
2
100
AcDbSymbolTableRecord
100
AcDbLayerTableRecord
  2
METIN
 70
     0
 62
    96
  6
Continuous
370
    -3
390
F
  0
LAYER
  5
79
330
2
100
AcDbSymbolTableRecord
100
AcDbLayerTableRecord
  2
BALON
 70
     0
 62
     5
  6
Continuous
370
    -3
390
F
  0
LAYER
  5
7A
330
2
100
AcDbSymbolTableRecord
100
AcDbLayerTableRecord
  2
VURGU
 70
     0
 62
     7
  6
Continuous
370
    -3
390
F
  0
LAYER
  5
7B
330
2
100
AcDbSymbolTableRecord
100
AcDbLayerTableRecord
  2
SILIK
 70
     0
 62
     7
  6
Continuous
370
    -3
390
F
  0
LAYER
  5
7C
330
2
100
AcDbSymbolTableRecord
100
AcDbLayerTableRecord
  2
MODEL
 70
     0
 62
     7
  6
Continuous
370
    -3
390
F
  0
LAYER
  5
7D
330
2
100
AcDbSymbolTableRecord
100
AcDbLayerTableRecord
  2
DETAYLANDıRMA
 70
     0
 62
   190
  6
Continuous
370
    -3
390
F
  0
LAYER
  5
7E
330
2
100
AcDbSymbolTableRecord
100
AcDbLayerTableRecord
  2
TOLERANS
 70
     0
 62
   230
  6
Continuous
370
    -3
390
F
  0
LAYER
  5
7F
330
2
100
AcDbSymbolTableRecord
100
AcDbLayerTableRecord
  2
MERKEZ_CIZGILERI
 70
     0
 62
    30
  6
Continuous
370
    -3
390
F
  0
LAYER
  5
80
330
2
100
AcDbSymbolTableRecord
100
AcDbLayerTableRecord
  2
KESIT-DETAY_CIZGILERI
 70
     0
 62
     7
  6
Continuous
370
    -3
390
F
  0
LAYER
  5
81
330
2
100
AcDbSymbolTableRecord
100
AcDbLayerTableRecord
  2
\U+041E\U+0421\U+0415\U+0412\U+042B\U+0415
 70
     0
 62
     7
  6
Continuous
370
    -3
390
F
  0
LAYER
  5
82
330
2
100
AcDbSymbolTableRecord
100
AcDbLayerTableRecord
  2
\U+0412\U+041E\U+0414\U+042F\U+041D\U+042B\U+0415_\U+0417\U+041D\U+0410\U+041A\U+0418
 70
     0
 62
    11
  6
Continuous
370
    -3
390
F
  0
ENDTAB
  0
TABLE
  2
STYLE
  5
3
330
0
100
AcDbSymbolTable
 70
     1
  0
STYLE
  5
11
330
3
100
AcDbSymbolTableRecord
100
AcDbTextStyleTableRecord
  2
Standard
 70
     0
 40
0.0
 41
1.0
 50
0.0
 71
     0
 42
3.5
  3
txt
  4

  0
ENDTAB
  0
TABLE
  2
VIEW
  5
6
330
0
100
AcDbSymbolTable
 70
     0
  0
ENDTAB
  0
TABLE
  2
UCS
  5
7
330
0
100
AcDbSymbolTable
 70
     0
  0
ENDTAB
  0
TABLE
  2
APPID
  5
9
330
0
100
AcDbSymbolTable
 70
     1
  0
APPID
  5
12
330
9
100
AcDbSymbolTableRecord
100
AcDbRegAppTableRecord
  2
ACAD
 70
     0
  0
ENDTAB
  0
TABLE
  2
DIMSTYLE
  5
A
330
0
100
AcDbSymbolTable
 70
     1
100
AcDbDimStyleTable
  0
DIMSTYLE
105
27
330
A
100
AcDbSymbolTableRecord
100
AcDbDimStyleTableRecord
  2
ISO-25
 70
     0
 41
2.5
 42
0.625
 43
3.75
 44
1.25
 73
     0
 74
     0
 77
     1
 78
     8
140
2.5
141
2.5
143
0.0393700787
147
0.625
171
     3
172
     1
178
     0
271
     2
272
     2
274
     3
278
    44
283
     0
284
     8
340
11
  0
ENDTAB
  0
TABLE
  2
BLOCK_RECORD
  5
1
330
0
100
AcDbSymbolTable
 70
     1
  0
BLOCK_RECORD
  5
1F
330
1
100
AcDbSymbolTableRecord
100
AcDbBlockTableRecord
  2
*Model_Space
340
22
  0
BLOCK_RECORD
  5
1B
330
1
100
AcDbSymbolTableRecord
100
AcDbBlockTableRecord
  2
*Paper_Space
340
1E
  0
BLOCK_RECORD
  5
23
330
1
100
AcDbSymbolTableRecord
100
AcDbBlockTableRecord
  2
*Paper_Space0
340
26
  0
ENDTAB
  0
ENDSEC
  0
SECTION
  2
BLOCKS
  0
BLOCK
  5
20
330
1F
100
AcDbEntity
  8
0
100
AcDbBlockBegin
  2
*Model_Space
 70
     0
 10
0.0
 20
0.0
 30
0.0
  3
*Model_Space
  1

  0
ENDBLK
  5
21
330
1F
100
AcDbEntity
  8
0
100
AcDbBlockEnd
  0
BLOCK
  5
1C
330
1B
100
AcDbEntity
 67
     1
  8
0
100
AcDbBlockBegin
  2
*Paper_Space
 70
     0
 10
0.0
 20
0.0
 30
0.0
  3
*Paper_Space
  1

  0
ENDBLK
  5
1D
330
1B
100
AcDbEntity
 67
     1
  8
0
100
AcDbBlockEnd
  0
BLOCK
  5
24
330
23
100
AcDbEntity
  8
0
100
AcDbBlockBegin
  2
*Paper_Space0
 70
     0
 10
0.0
 20
0.0
 30
0.0
  3
*Paper_Space0
  1

  0
ENDBLK
  5
25
330
23
100
AcDbEntity
  8
0
100
AcDbBlockEnd
  0
ENDSEC
  0
SECTION
  2
ENTITIES
  0
CIRCLE
  5
83
330
1F
100
AcDbEntity
  8
0
  6
Continuous
 62
     7
370
    25
100
AcDbCircle
 10
135.9944086538
 20
118.27271875
 30
0.0
 40
314.9999999999999
  0
CIRCLE
  5
84
330
1F
100
AcDbEntity
  8
0
  6
Continuous
 62
     7
370
    25
100
AcDbCircle
 10
135.9944086538
 20
118.27271875
 30
0.0
 40
277.6
  0
CIRCLE
  5
85
330
1F
100
AcDbEntity
  8
0
  6
Continuous
 62
     7
370
    25
100
AcDbCircle
 10
135.9944086538
 20
118.27271875
 30
0.0
 40
325.0
  0
CIRCLE
  5
86
330
1F
100
AcDbEntity
  8
0
  6
Continuous
 62
     7
370
    25
100
AcDbCircle
 10
135.9944086538
 20
118.27271875
 30
0.0
 40
355.0
  0
LINE
  5
87
330
1F
100
AcDbEntity
  8
0
  6
Continuous
 62
     7
370
    25
100
AcDbLine
 10
490.9944086538
 20
658.3585547449
 30
0.0
 11
490.9944086538
 21
708.3585547449
 31
0.0
  0
LINE
  5
88
330
1F
100
AcDbEntity
  8
0
  6
Continuous
 62
     7
370
    25
100
AcDbLine
 10
-219.0055913462
 20
708.3585547449
 30
0.0
 11
-219.0055913462
 21
658.3585547449
 31
0.0
  0
LINE
  5
89
330
1F
100
AcDbEntity
  8
0
  6
Continuous
 62
     7
370
    25
100
AcDbLine
 10
460.9944086538
 20
708.3585547449
 30
0.0
 11
450.9944086538
 21
793.3585547449
 31
0.0
  0
LINE
  5
8A
330
1F
100
AcDbEntity
  8
0
  6
Continuous
 62
     7
370
    25
100
AcDbLine
 10
-179.0055913462
 20
793.3585547449
 30
0.0
 11
-189.0055913462
 21
708.3585547449
 31
0.0
  0
LINE
  5
8B
330
1F
100
AcDbEntity
  8
0
  6
Continuous
 62
     7
370
    25
100
AcDbLine
 10
450.9944086538
 20
793.3585547449
 30
0.0
 11
450.9944086538
 21
1062.3585547449
 31
0.0
  0
LINE
  5
8C
330
1F
100
AcDbEntity
  8
0
  6
Continuous
 62
     7
370
    25
100
AcDbLine
 10
-179.0055913462
 20
1062.3585547449
 30
0.0
 11
-179.0055913462
 21
793.3585547449
 31
0.0
  0
LINE
  5
8D
330
1F
100
AcDbEntity
  8
0
  6
Continuous
 62
     7
370
    25
100
AcDbLine
 10
490.9944086538
 20
658.3585547449
 30
0.0
 11
-219.0055913462
 21
658.3585547449
 31
0.0
  0
LINE
  5
8E
330
1F
100
AcDbEntity
  8
0
  6
Continuous
 62
     7
370
    25
100
AcDbLine
 10
490.9944086538
 20
708.3585547449
 30
0.0
 11
-219.0055913462
 21
708.3585547449
 31
0.0
  0
LINE
  5
8F
330
1F
100
AcDbEntity
  8
0
  6
Continuous
 62
     7
370
    25
100
AcDbLine
 10
450.9944086538
 20
793.3585547449
 30
0.0
 11
-179.0055913462
 21
793.3585547449
 31
0.0
  0
LINE
  5
90
330
1F
100
AcDbEntity
  8
0
  6
Continuous
 62
     7
370
    25
100
AcDbLine
 10
450.9944086538
 20
1062.3585547449
 30
0.0
 11
-179.0055913462
 21
1062.3585547449
 31
0.0
  0
LINE
  5
91
330
1F
100
AcDbEntity
  8
0
  6
Continuous
 62
     7
370
    25
100
AcDbLine
 10
-514.9279948718
 20
473.27271875
 30
0.0
 11
-564.9279948718
 21
473.27271875
 31
0.0
  0
LINE
  5
92
330
1F
100
AcDbEntity
  8
0
  6
Continuous
 62
     7
370
    25
100
AcDbLine
 10
-564.9279948718
 20
-236.72728125
 30
0.0
 11
-514.9279948718
 21
-236.72728125
 31
0.0
  0
LINE
  5
93
330
1F
100
AcDbEntity
  8
0
  6
Continuous
 62
     7
370
    25
100
AcDbLine
 10
-564.9279948718
 20
443.27271875
 30
0.0
 11
-649.9279948718
 21
433.27271875
 31
0.0
  0
LINE
  5
94
330
1F
100
AcDbEntity
  8
0
  6
Continuous
 62
     7
370
    25
100
AcDbLine
 10
-649.9279948718
 20
-196.72728125
 30
0.0
 11
-564.9279948718
 21
-206.72728125
 31
0.0
  0
LINE
  5
95
330
1F
100
AcDbEntity
  8
0
  6
Continuous
 62
     7
370
    25
100
AcDbLine
 10
-649.9279948718
 20
433.27271875
 30
0.0
 11
-918.9279948718
 21
433.27271875
 31
0.0
  0
LINE
  5
96
330
1F
100
AcDbEntity
  8
0
  6
Continuous
 62
     7
370
    25
100
AcDbLine
 10
-918.9279948718
 20
-196.72728125
 30
0.0
 11
-649.9279948718
 21
-196.72728125
 31
0.0
  0
LINE
  5
97
330
1F
100
AcDbEntity
  8
0
  6
Continuous
 62
     7
370
    25
100
AcDbLine
 10
-514.9279948718
 20
473.27271875
 30
0.0
 11
-514.9279948718
 21
-236.72728125
 31
0.0
  0
LINE
  5
98
330
1F
100
AcDbEntity
  8
0
  6
Continuous
 62
     7
370
    25
100
AcDbLine
 10
-564.9279948718
 20
473.27271875
 30
0.0
 11
-564.9279948718
 21
-236.72728125
 31
0.0
  0
LINE
  5
99
330
1F
100
AcDbEntity
  8
0
  6
Continuous
 62
     7
370
    25
100
AcDbLine
 10
-649.9279948718
 20
433.27271875
 30
0.0
 11
-649.9279948718
 21
-196.72728125
 31
0.0
  0
LINE
  5
9A
330
1F
100
AcDbEntity
  8
0
  6
Continuous
 62
     7
370
    25
100
AcDbLine
 10
-918.9279948718
 20
433.27271875
 30
0.0
 11
-918.9279948718
 21
-196.72728125
 31
0.0
  0
LINE
  5
9B
330
1F
100
AcDbEntity
  8
0
  6
Continuous
 62
     7
370
    25
100
AcDbLine
 10
-219.0055913462
 20
-695.966346058
 30
0.0
 11
-219.0055913462
 21
-745.966346058
 31
0.0
  0
LINE
  5
9C
330
1F
100
AcDbEntity
  8
0
  6
Continuous
 62
     7
370
    25
100
AcDbLine
 10
490.9944086538
 20
-745.966346058
 30
0.0
 11
490.9944086538
 21
-695.966346058
 31
0.0
  0
LINE
  5
9D
330
1F
100
AcDbEntity
  8
0
  6
Continuous
 62
     7
370
    25
100
AcDbLine
 10
-189.0055913462
 20
-745.966346058
 30
0.0
 11
-179.0055913462
 21
-830.966346058
 31
0.0
  0
LINE
  5
9E
330
1F
100
AcDbEntity
  8
0
  6
Continuous
 62
     7
370
    25
100
AcDbLine
 10
450.9944086538
 20
-830.966346058
 30
0.0
 11
460.9944086538
 21
-745.966346058
 31
0.0
  0
LINE
  5
9F
330
1F
100
AcDbEntity
  8
0
  6
Continuous
 62
     7
370
    25
100
AcDbLine
 10
-179.0055913462
 20
-830.966346058
 30
0.0
 11
-179.0055913462
 21
-1099.966346058
 31
0.0
  0
LINE
  5
A0
330
1F
100
AcDbEntity
  8
0
  6
Continuous
 62
     7
370
    25
100
AcDbLine
 10
450.9944086538
 20
-1099.966346058
 30
0.0
 11
450.9944086538
 21
-830.966346058
 31
0.0
  0
LINE
  5
A1
330
1F
100
AcDbEntity
  8
0
  6
Continuous
 62
     7
370
    25
100
AcDbLine
 10
-219.0055913462
 20
-695.966346058
 30
0.0
 11
490.9944086538
 21
-695.966346058
 31
0.0
  0
LINE
  5
A2
330
1F
100
AcDbEntity
  8
0
  6
Continuous
 62
     7
370
    25
100
AcDbLine
 10
-219.0055913462
 20
-745.966346058
 30
0.0
 11
490.9944086538
 21
-745.966346058
 31
0.0
  0
LINE
  5
A3
330
1F
100
AcDbEntity
  8
0
  6
Continuous
 62
     7
370
    25
100
AcDbLine
 10
-179.0055913462
 20
-830.966346058
 30
0.0
 11
450.9944086538
 21
-830.966346058
 31
0.0
  0
LINE
  5
A4
330
1F
100
AcDbEntity
  8
0
  6
Continuous
 62
     7
370
    25
100
AcDbLine
 10
-179.0055913462
 20
-1099.966346058
 30
0.0
 11
450.9944086538
 21
-1099.966346058
 31
0.0
  0
LINE
  5
A5
330
1F
100
AcDbEntity
  8
0
  6
Continuous
 62
     7
370
    25
100
AcDbLine
 10
942.3095381245
 20
-236.72728125
 30
0.0
 11
992.3095381245
 21
-236.72728125
 31
0.0
  0
LINE
  5
A6
330
1F
100
AcDbEntity
  8
0
  6
Continuous
 62
     7
370
    25
100
AcDbLine
 10
992.3095381245
 20
473.27271875
 30
0.0
 11
942.3095381245
 21
473.27271875
 31
0.0
  0
LINE
  5
A7
330
1F
100
AcDbEntity
  8
0
  6
Continuous
 62
     7
370
    25
100
AcDbLine
 10
992.3095381245
 20
-206.72728125
 30
0.0
 11
1077.3095381245
 21
-196.72728125
 31
0.0
  0
LINE
  5
A8
330
1F
100
AcDbEntity
  8
0
  6
Continuous
 62
     7
370
    25
100
AcDbLine
 10
1077.3095381245
 20
433.27271875
 30
0.0
 11
992.3095381245
 21
443.27271875
 31
0.0
  0
LINE
  5
A9
330
1F
100
AcDbEntity
  8
0
  6
Continuous
 62
     7
370
    25
100
AcDbLine
 10
1077.3095381245
 20
-196.72728125
 30
0.0
 11
1346.3095381245
 21
-196.72728125
 31
0.0
  0
LINE
  5
AA
330
1F
100
AcDbEntity
  8
0
  6
Continuous
 62
     7
370
    25
100
AcDbLine
 10
1346.3095381245
 20
433.27271875
 30
0.0
 11
1077.3095381245
 21
433.27271875
 31
0.0
  0
LINE
  5
AB
330
1F
100
AcDbEntity
  8
0
  6
Continuous
 62
     7
370
    25
100
AcDbLine
 10
942.3095381245
 20
118.27271875
 30
0.0
 11
942.3095381245
 21
473.27271875
 31
0.0
  0
LINE
  5
AC
330
1F
100
AcDbEntity
  8
0
  6
Continuous
 62
     7
370
    25
100
AcDbLine
 10
942.3095381245
 20
-236.72728125
 30
0.0
 11
942.3095381245
 21
118.27271875
 31
0.0
  0
LINE
  5
AD
330
1F
100
AcDbEntity
  8
0
  6
Continuous
 62
     7
370
    25
100
AcDbLine
 10
992.3095381245
 20
118.27271875
 30
0.0
 11
992.3095381245
 21
473.27271875
 31
0.0
  0
LINE
  5
AE
330
1F
100
AcDbEntity
  8
0
  6
Continuous
 62
     7
370
    25
100
AcDbLine
 10
992.3095381245
 20
-236.72728125
 30
0.0
 11
992.3095381245
 21
118.27271875
 31
0.0
  0
LINE
  5
AF
330
1F
100
AcDbEntity
  8
0
  6
Continuous
 62
     7
370
    25
100
AcDbLine
 10
1077.3095381245
 20
118.27271875
 30
0.0
 11
1077.3095381245
 21
433.27271875
 31
0.0
  0
LINE
  5
B0
330
1F
100
AcDbEntity
  8
0
  6
Continuous
 62
     7
370
    25
100
AcDbLine
 10
1077.3095381245
 20
-196.72728125
 30
0.0
 11
1077.3095381245
 21
118.27271875
 31
0.0
  0
LINE
  5
B1
330
1F
100
AcDbEntity
  8
0
  6
Continuous
 62
     7
370
    25
100
AcDbLine
 10
1346.3095381245
 20
118.27271875
 30
0.0
 11
1346.3095381245
 21
433.27271875
 31
0.0
  0
LINE
  5
B2
330
1F
100
AcDbEntity
  8
0
  6
Continuous
 62
     7
370
    25
100
AcDbLine
 10
1346.3095381245
 20
-196.72728125
 30
0.0
 11
1346.3095381245
 21
118.27271875
 31
0.0
  0
LINE
  5
B3
330
1F
100
AcDbEntity
  8
0
  6
Continuous
 62
     7
370
    25
100
AcDbLine
 10
1216.3290859993
 20
-550.8312228684
 30
0.0
 11
1026.1173618601
 21
-441.0243318282
 31
0.0
  0
LINE
  5
B4
330
1F
100
AcDbEntity
  8
0
  6
Continuous
 62
     7
370
    25
100
AcDbLine
 10
711.1429610798
 20
-986.635115128
 30
0.0
 11
901.3546852189
 21
-1096.4420061682
 31
0.0
  0
LINE
  5
B5
330
1F
100
AcDbEntity
  8
0
  6
Continuous
 62
     7
370
    25
100
AcDbLine
 10
1267.3490352474
 20
-570.0386896545
 30
0.0
 11
1209.7655076616
 21
-547.0421497467
 31
0.0
  0
LINE
  5
B6
330
1F
100
AcDbEntity
  8
0
  6
Continuous
 62
     7
370
    25
100
AcDbLine
 10
894.7911068813
 20
-1092.6529330465
 30
0.0
 11
943.5020588401
 21
-1131.0188900425
 31
0.0
  0
LINE
  5
B7
330
1F
100
AcDbEntity
  8
0
  6
Continuous
 62
     7
370
    25
100
AcDbLine
 10
1331.7868761122
 20
-571.2968159212
 30
0.0
 11
1296.4315370529
 21
-550.8866131256
 31
0.0
  0
LINE
  5
B8
330
1F
100
AcDbEntity
  8
0
  6
Continuous
 62
     7
370
    25
100
AcDbLine
 10
941.4603869671
 20
-1165.7813054159
 30
0.0
 11
976.8157260264
 21
-1186.1915082115
 31
0.0
  0
LWPOLYLINE
  5
B9
330
1F
100
AcDbEntity
  8
0
  6
Continuous
 62
     7
370
    25
100
AcDbPolyline
 90
      189
 70
   128
 43
0.0
 10
645.8915253962
 20
-842.4140010902
 10
646.0159107292
 20
-833.7475168425
 10
646.3889278058
 20
-824.9470997045
 10
647.0101600135
 20
-816.0225786203
 10
647.8789135149
 20
-806.9839211424
 10
648.9942180233
 20
-797.8412222992
 10
650.3548278856
 20
-788.60469332
 10
651.959223474
 20
-779.2846502303
 10
653.8056128831
 20
-769.8915023304
 10
655.8919339314
 20
-760.4357405691
 10
658.2158564642
 20
-750.9279258272
 10
660.7747849561
 20
-741.3786771218
 10
663.5658614102
 20
-731.7986597466
 10
666.5859685499
 20
-722.1985733599
 10
669.8317333004
 20
-712.5891400346
 10
673.2995305562
 20
-702.9810922829
 10
676.9854872298
 20
-693.3851610694
 10
680.8854865774
 20
-683.8120638263
 10
684.9951727969
 20
-674.272492483
 10
689.3099558925
 20
-664.7771015247
 10
693.8250168014
 20
-655.3364960928
 10
698.5353127763
 20
-645.9612201404
 10
703.4355830167
 20
-636.6617446556
 10
708.5203545455
 20
-627.4484559673
 10
713.7839483209
 20
-618.3316441446
 10
719.2204855796
 20
-609.3214915043
 10
724.8238944025
 20
-600.4280612384
 10
730.5879164961
 20
-591.661286175
 10
736.5061141823
 20
-583.0309576845
 10
742.5718775888
 20
-574.5467147436
 10
748.778432031
 20
-566.2180331705
 10
755.1188455785
 20
-558.0542150407
 10
761.5860367977
 20
-550.0643782986
 10
768.1727826603
 20
-542.2574465735
 10
774.8717266106
 20
-534.642139213
 10
781.6753867822
 20
-527.2269615448
 10
788.5761643538
 20
-520.0201953772
 10
795.5663520365
 20
-513.0298897494
 10
802.6381426815
 20
-506.2638519418
 10
809.7836380002
 20
-499.7296387563
 10
816.9948573849
 20
-493.4345480761
 10
824.2637468229
 20
-487.3856107152
 10
831.5821878911
 20
-481.5895825655
 10
838.9420068236
 20
-476.0529370518
 10
846.3349836407
 20
-470.7818579014
 10
853.7528613298
 20
-465.7822322378
 10
861.1873550668
 20
-461.0596440057
 10
868.6301614699
 20
-456.6193677341
 10
876.0729678731
 20
-452.4663626458
 10
883.5074616101
 20
-448.605267118
 10
890.9253392992
 20
-445.0403935023
 10
898.3183161163
 20
-441.7757233081
 10
905.6781350488
 20
-438.814902756
 10
912.996576117
 20
-436.1612387051
 10
920.2654655549
 20
-433.81769496
 10
927.4766849397
 20
-431.7868889602
 10
934.6221802584
 20
-430.0710888573
 10
941.6939709034
 20
-428.6722109812
 10
948.6841585861
 20
-427.5918177002
 10
955.5849361577
 20
-426.831115676
 10
962.3885963293
 20
-426.3909545157
 10
969.0875402796
 20
-426.2718258232
 10
975.6742861422
 20
-426.4738626502
 10
982.1414773614
 20
-426.9968393471
 10
988.4818909089
 20
-427.8401718158
 10
994.688445351
 20
-429.0029181613
 10
1000.7542087575
 20
-430.4837797442
 10
1006.6724064438
 20
-432.2811026308
 10
1012.4364285374
 20
-434.3928794406
 10
1018.0398373603
 20
-436.816751588
 10
1023.476374619
 20
-439.5500119167
 10
1028.7399683944
 20
-442.5896077235
 10
1033.8247399232
 20
-445.9321441672
 10
1038.7250101636
 20
-449.5738880605
 10
1043.4353061384
 20
-453.5107720399
 10
1047.9503670474
 20
-457.7383991076
 10
1052.265150143
 20
-462.2520475432
 10
1056.3748363624
 20
-467.0466761765
 10
1060.2748357101
 20
-472.1169300185
 10
1063.9607923837
 20
-477.4571462421
 10
1067.4285896395
 20
-483.0613605062
 10
1070.67435439
 20
-488.9233136179
 10
1073.6944615297
 20
-495.0364585228
 10
1076.4855379838
 20
-501.3939676171
 10
1079.0444664757
 20
-507.9887403735
 10
1081.3683890085
 20
-514.8134112714
 10
1083.4547100567
 20
-521.8603580234
 10
1085.3010994659
 20
-529.1217100881
 10
1086.9054950543
 20
-536.5893574607
 10
1088.2661049166
 20
-544.2549597311
 10
1089.3814094249
 20
-552.1099553984
 10
1090.2501629264
 20
-560.1455714339
 10
1090.871395134
 20
-568.3528330785
 10
1091.2444122106
 20
-576.7225738671
 10
1091.3687975437
 20
-585.2454458661
 10
1091.2444122106
 20
-593.9119301137
 10
1090.871395134
 20
-602.7123472518
 10
1090.2501629264
 20
-611.636868336
 10
1089.3814094249
 20
-620.6755258139
 10
1088.2661049166
 20
-629.8182246571
 10
1086.9054950543
 20
-639.0547536363
 10
1085.3010994659
 20
-648.374796726
 10
1083.4547100567
 20
-657.7679446259
 10
1081.3683890085
 20
-667.2237063871
 10
1079.0444664757
 20
-676.7315211291
 10
1076.4855379838
 20
-686.2807698345
 10
1073.6944615297
 20
-695.8607872097
 10
1070.67435439
 20
-705.4608735963
 10
1067.4285896395
 20
-715.0703069216
 10
1063.9607923837
 20
-724.6783546734
 10
1060.2748357101
 20
-734.2742858868
 10
1056.3748363624
 20
-743.8473831299
 10
1052.265150143
 20
-753.3869544733
 10
1047.9503670474
 20
-762.8823454316
 10
1043.4353061384
 20
-772.3229508634
 10
1038.7250101636
 20
-781.6982268159
 10
1033.8247399232
 20
-790.9977023007
 10
1028.7399683944
 20
-800.210990989
 10
1023.476374619
 20
-809.3278028117
 10
1018.0398373603
 20
-818.337955452
 10
1012.4364285374
 20
-827.2313857178
 10
1006.6724064438
 20
-835.9981607812
 10
1000.7542087575
 20
-844.6284892718
 10
994.688445351
 20
-853.1127322126
 10
988.4818909089
 20
-861.4414137858
 10
982.1414773614
 20
-869.6052319156
 10
975.6742861422
 20
-877.5950686576
 10
969.0875402796
 20
-885.4020003827
 10
962.3885963293
 20
-893.0173077432
 10
955.5849361577
 20
-900.4324854115
 10
948.6841585861
 20
-907.6392515791
 10
941.6939709034
 20
-914.6295572069
 10
934.6221802584
 20
-921.3955950144
 10
927.4766849397
 20
-927.9298081999
 10
920.2654655549
 20
-934.2248988801
 10
912.996576117
 20
-940.2738362411
 10
905.6781350488
 20
-946.0698643907
 10
898.3183161163
 20
-951.6065099045
 10
890.9253392992
 20
-956.8775890549
 10
883.5074616101
 20
-961.8772147185
 10
876.0729678731
 20
-966.5998029506
 10
868.6301614699
 20
-971.0400792221
 10
861.1873550668
 20
-975.1930843105
 10
853.7528613298
 20
-979.0541798383
 10
846.3349836407
 20
-982.619053454
 10
838.9420068236
 20
-985.8837236482
 10
831.5821878911
 20
-988.8445442002
 10
824.2637468229
 20
-991.4982082511
 10
816.9948573849
 20
-993.8417519963
 10
809.7836380002
 20
-995.8725579961
 10
802.6381426815
 20
-997.588358099
 10
795.5663520365
 20
-998.9872359751
 10
788.5761643538
 20
-1000.067629256
 10
781.6753867822
 20
-1000.8283312803
 10
774.8717266106
 20
-1001.2684924406
 10
768.1727826603
 20
-1001.387621133
 10
761.5860367977
 20
-1001.1855843061
 10
755.1188455785
 20
-1000.6626076091
 10
748.778432031
 20
-999.8192751404
 10
742.5718775888
 20
-998.6565287949
 10
736.5061141823
 20
-997.1756672121
 10
730.5879164961
 20
-995.3783443255
 10
724.8238944025
 20
-993.2665675157
 10
719.2204855796
 20
-990.8426953683
 10
713.7839483209
 20
-988.1094350395
 10
708.5203545455
 20
-985.0698392328
 10
703.4355830167
 20
-981.7273027891
 10
698.5353127763
 20
-978.0855588957
 10
693.8250168014
 20
-974.1486749164
 10
689.3099558925
 20
-969.9210478486
 10
684.9951727969
 20
-965.4073994131
 10
680.8854865774
 20
-960.6127707798
 10
676.9854872298
 20
-955.5425169377
 10
673.2995305562
 20
-950.2023007142
 10
669.8317333004
 20
-944.5980864501
 10
666.5859685499
 20
-938.7361333383
 10
663.5658614102
 20
-932.6229884335
 10
660.7747849561
 20
-926.2654793392
 10
658.2158564642
 20
-919.6707065828
 10
655.8919339314
 20
-912.8460356848
 10
653.8056128831
 20
-905.7990889329
 10
651.959223474
 20
-898.5377368682
 10
650.3548278856
 20
-891.0700894955
 10
648.9942180233
 20
-883.4044872252
 10
647.8789135149
 20
-875.5494915578
 10
647.0101600135
 20
-867.5138755224
 10
646.3889278058
 20
-859.3066138778
 10
646.0159107292
 20
-850.9368730892
 10
645.8915253962
 20
-842.4140010902
  0
LWPOLYLINE
  5
BA
330
1F
100
AcDbEntity
  8
0
  6
Continuous
 62
     7
370
    25
100
AcDbPolyline
 90
      177
 70
   128
 43
0.0
 10
672.3373190126
 20
-827.1471693991
 10
672.4623917755
 20
-818.9845233931
 10
672.837450678
 20
-810.687873506
 10
673.4620177642
 20
-802.2677925626
 10
674.3352971179
 20
-793.7350106821
 10
675.4561758766
 20
-785.1004016039
 10
676.8232256501
 20
-776.3749688307
 10
678.4347043403
 20
-767.5698316062
 10
680.2885583613
 20
-758.6962107455
 10
682.3824252567
 20
-749.7654143358
 10
684.7136367101
 20
-740.7888233256
 10
687.2792219451
 20
-731.7778770219
 10
690.0759115116
 20
-722.7440585124
 10
693.100141452
 20
-713.6988800317
 10
696.3480578427
 20
-704.6538682912
 10
699.8155217057
 20
-695.6205497897
 10
703.4981142832
 20
-686.6104361248
 10
707.391142668
 20
-677.6350093229
 10
711.4896457845
 20
-668.7057072075
 10
715.7884007108
 20
-659.8339088229
 10
720.281929334
 20
-651.0309199337
 10
724.9645053319
 20
-642.3079586174
 10
729.8301614699
 20
-633.6761409681
 10
734.8726972056
 20
-625.1464669314
 10
740.0856865901
 20
-616.7298062861
 10
745.4624864572
 20
-608.4368847927
 10
750.9962448892
 20
-600.2782705248
 10
756.6799099482
 20
-592.2643604017
 10
762.5062386631
 20
-584.4053669394
 10
768.4678062596
 20
-576.7113052357
 10
774.5570156218
 20
-569.1919802082
 10
780.7661069739
 20
-561.8569740988
 10
787.0871677683
 20
-554.7156342628
 10
793.5121427697
 20
-547.7770612574
 10
800.0328443194
 20
-541.0500972438
 10
806.6409627701
 20
-534.54331472
 10
813.3280770748
 20
-528.2650055955
 10
820.085665518
 20
-522.2231706255
 10
826.9051165758
 20
-516.4255092143
 10
833.7777398898
 20
-510.8794096042
 10
840.6947773414
 20
-505.5919394599
 10
847.6474142131
 20
-500.569836862
 10
854.6267904212
 20
-495.8195017204
 10
861.6240118068
 20
-491.3469876185
 10
868.6301614699
 20
-487.1579940986
 10
875.6363111331
 20
-483.2578593993
 10
882.6335325187
 20
-479.651553652
 10
889.6129087268
 20
-476.3436725477
 10
896.5655455985
 20
-473.3384314803
 10
903.4825830501
 20
-470.6396601749
 10
910.3552063641
 20
-468.2507978071
 10
917.1746574219
 20
-466.1748886206
 10
923.9322458651
 20
-464.4145780474
 10
930.6193601698
 20
-462.9721093371
 10
937.2274786205
 20
-461.8493206978
 10
943.7481801702
 20
-461.0476429536
 10
950.1731551716
 20
-460.5680977216
 10
956.494215966
 20
-460.4112961096
 10
962.703307318
 20
-460.5774379375
 10
968.7925166803
 20
-461.0663114828
 10
974.7540842768
 20
-461.87729375
 10
980.5804129917
 20
-463.0093512649
 10
986.2640780507
 20
-464.4610413916
 10
991.7978364826
 20
-466.2305141707
 10
997.1746363498
 20
-468.3155146768
 10
1002.3876257343
 20
-470.7133858923
 10
1007.4301614699
 20
-473.4210720931
 10
1012.295817608
 20
-476.435122743
 10
1016.9783936059
 20
-479.7516968903
 10
1021.4719222291
 20
-483.3665680633
 10
1025.7706771553
 20
-487.2751296555
 10
1029.8691802719
 20
-491.4724007967
 10
1033.7622086567
 20
-495.9530326999
 10
1037.4448012341
 20
-500.7113154777
 10
1040.9122650972
 20
-505.7411854187
 10
1044.1601814879
 20
-511.0362327147
 10
1047.1844114283
 20
-516.5897096292
 10
1049.9811009948
 20
-522.3945390962
 10
1052.5466862298
 20
-528.4433237389
 10
1054.8778976832
 20
-534.7283552965
 10
1056.9717645786
 20
-541.2416244472
 10
1058.8256185996
 20
-547.9748310153
 10
1060.4370972897
 20
-554.9193945476
 10
1061.8041470632
 20
-562.0664652487
 10
1062.925025822
 20
-569.4069352586
 10
1063.7983051757
 20
-576.9314502589
 10
1064.4228722619
 20
-584.6304213937
 10
1064.7979311644
 20
-592.4940374894
 10
1064.9230039273
 20
-600.5122775571
 10
1064.7979311644
 20
-608.6749235632
 10
1064.4228722619
 20
-616.9715734503
 10
1063.7983051757
 20
-625.3916543936
 10
1062.925025822
 20
-633.9244362741
 10
1061.8041470632
 20
-642.5590453523
 10
1060.4370972897
 20
-651.2844781256
 10
1058.8256185996
 20
-660.0896153501
 10
1056.9717645786
 20
-668.9632362108
 10
1054.8778976832
 20
-677.8940326205
 10
1052.5466862298
 20
-686.8706236307
 10
1049.9811009948
 20
-695.8815699343
 10
1047.1844114283
 20
-704.9153884439
 10
1044.1601814879
 20
-713.9605669246
 10
1040.9122650972
 20
-723.0055786651
 10
1037.4448012341
 20
-732.0388971666
 10
1033.7622086567
 20
-741.0490108315
 10
1029.8691802719
 20
-750.0244376334
 10
1025.7706771553
 20
-758.9537397488
 10
1021.4719222291
 20
-767.8255381334
 10
1016.9783936059
 20
-776.6285270225
 10
1012.295817608
 20
-785.3514883389
 10
1007.4301614699
 20
-793.9833059882
 10
1002.3876257343
 20
-802.5129800249
 10
997.1746363498
 20
-810.9296406702
 10
991.7978364826
 20
-819.2225621636
 10
986.2640780507
 20
-827.3811764315
 10
980.5804129917
 20
-835.3950865545
 10
974.7540842768
 20
-843.2540800169
 10
968.7925166803
 20
-850.9481417205
 10
962.703307318
 20
-858.467466748
 10
956.494215966
 20
-865.8024728575
 10
950.1731551716
 20
-872.9438126934
 10
943.7481801702
 20
-879.8823856989
 10
937.2274786205
 20
-886.6093497124
 10
930.6193601698
 20
-893.1161322363
 10
923.9322458651
 20
-899.3944413607
 10
917.1746574219
 20
-905.4362763308
 10
910.3552063641
 20
-911.233937742
 10
903.4825830501
 20
-916.7800373521
 10
896.5655455985
 20
-922.0675074964
 10
889.6129087268
 20
-927.0896100943
 10
882.6335325187
 20
-931.8399452358
 10
875.6363111331
 20
-936.3124593378
 10
868.6301614699
 20
-940.5014528576
 10
861.6240118067
 20
-944.401587557
 10
854.6267904212
 20
-948.0078933043
 10
847.6474142131
 20
-951.3157744086
 10
840.6947773414
 20
-954.321015476
 10
833.7777398898
 20
-957.0197867814
 10
826.9051165758
 20
-959.4086491492
 10
820.085665518
 20
-961.4845583357
 10
813.3280770747
 20
-963.2448689089
 10
806.6409627701
 20
-964.6873376192
 10
800.0328443194
 20
-965.8101262585
 10
793.5121427696
 20
-966.6118040027
 10
787.0871677683
 20
-967.0913492347
 10
780.7661069739
 20
-967.2481508467
 10
774.5570156218
 20
-967.0820090187
 10
768.4678062596
 20
-966.5931354735
 10
762.5062386631
 20
-965.7821532063
 10
756.6799099482
 20
-964.6500956913
 10
750.9962448892
 20
-963.1984055646
 10
745.4624864572
 20
-961.4289327855
 10
740.0856865901
 20
-959.3439322794
 10
734.8726972056
 20
-956.946061064
 10
729.8301614699
 20
-954.2383748631
 10
724.9645053319
 20
-951.2243242133
 10
720.281929334
 20
-947.9077500659
 10
715.7884007108
 20
-944.292878893
 10
711.4896457845
 20
-940.3843173007
 10
707.391142668
 20
-936.1870461595
 10
703.4981142832
 20
-931.7064142564
 10
699.8155217057
 20
-926.9481314786
 10
696.3480578427
 20
-921.9182615376
 10
693.100141452
 20
-916.6232142416
 10
690.0759115116
 20
-911.0697373271
 10
687.2792219451
 20
-905.2649078601
 10
684.7136367101
 20
-899.2161232174
 10
682.3824252567
 20
-892.9310916598
 10
680.2885583613
 20
-886.417822509
 10
678.4347043403
 20
-879.684615941
 10
676.8232256501
 20
-872.7400524087
 10
675.4561758766
 20
-865.5929817075
 10
674.3352971179
 20
-858.2525116977
 10
673.4620177642
 20
-850.7279966974
 10
672.837450678
 20
-843.0290255625
 10
672.4623917755
 20
-835.1654094668
 10
672.3373190126
 20
-827.1471693991
  0
LWPOLYLINE
  5
BB
330
1F
100
AcDbEntity
  8
0
  6
Continuous
 62
     7
370
    25
100
AcDbPolyline
 90
       96
 70
   128
 43
0.0
 10
1216.3290859993
 20
-550.8312228684
 10
1218.9516925336
 20
-552.3964987637
 10
1224.0364640624
 20
-555.7390352073
 10
1228.9367343028
 20
-559.3807791007
 10
1233.6470302776
 20
-563.3176630801
 10
1238.1620911866
 20
-567.5452901478
 10
1242.4768742822
 20
-572.0589385833
 10
1246.5865605016
 20
-576.8535672166
 10
1250.4865598492
 20
-581.9238210587
 10
1254.1725165229
 20
-587.2640372822
 10
1257.6403137787
 20
-592.8682515463
 10
1260.8860785292
 20
-598.7302046581
 10
1263.9061856689
 20
-604.8433495629
 10
1266.697262123
 20
-611.2008586572
 10
1269.2561906149
 20
-617.7956314136
 10
1271.5801131476
 20
-624.6203023116
 10
1273.6664341959
 20
-631.6672490636
 10
1275.5128236051
 20
-638.9286011282
 10
1277.1172191935
 20
-646.3962485009
 10
1278.4778290558
 20
-654.0618507712
 10
1279.5931335641
 20
-661.9168464386
 10
1280.4618870656
 20
-669.952462474
 10
1281.0831192732
 20
-678.1597241186
 10
1281.4561363498
 20
-686.5294649072
 10
1281.5805216829
 20
-695.0523369062
 10
1281.4561363498
 20
-703.7188211539
 10
1281.0831192732
 20
-712.5192382919
 10
1280.4618870656
 20
-721.4437593762
 10
1279.5931335641
 20
-730.482416854
 10
1278.4778290558
 20
-739.6251156972
 10
1277.1172191935
 20
-748.8616446764
 10
1275.5128236051
 20
-758.1816877661
 10
1273.6664341959
 20
-767.574835666
 10
1271.5801131476
 20
-777.0305974273
 10
1269.2561906149
 20
-786.5384121692
 10
1266.697262123
 20
-796.0876608746
 10
1263.9061856689
 20
-805.6676782498
 10
1260.8860785292
 20
-815.2677646365
 10
1257.6403137787
 20
-824.8771979618
 10
1254.1725165229
 20
-834.4852457135
 10
1250.4865598492
 20
-844.081176927
 10
1246.5865605016
 20
-853.6542741701
 10
1242.4768742822
 20
-863.1938455134
 10
1238.1620911866
 20
-872.6892364717
 10
1233.6470302776
 20
-882.1298419036
 10
1228.9367343028
 20
-891.5051178561
 10
1224.0364640624
 20
-900.8045933408
 10
1218.9516925336
 20
-910.0178820291
 10
1213.6880987582
 20
-919.1346938518
 10
1208.2515614994
 20
-928.1448464921
 10
1202.6481526766
 20
-937.038276758
 10
1196.884130583
 20
-945.8050518214
 10
1190.9659328967
 20
-954.4353803119
 10
1184.9001694902
 20
-962.9196232528
 10
1178.6936150481
 20
-971.248304826
 10
1172.3532015005
 20
-979.4121229557
 10
1165.8860102813
 20
-987.4019596978
 10
1159.2992644188
 20
-995.2088914229
 10
1152.6003204684
 20
-1002.8241987834
 10
1145.7966602969
 20
-1010.2393764516
 10
1138.8958827253
 20
-1017.4461426192
 10
1131.9056950426
 20
-1024.436448247
 10
1124.8339043975
 20
-1031.2024860546
 10
1117.6884090789
 20
-1037.7366992401
 10
1110.4771896941
 20
-1044.0317899203
 10
1103.2083002562
 20
-1050.0807272812
 10
1095.889859188
 20
-1055.8767554309
 10
1088.5300402555
 20
-1061.4134009446
 10
1081.1370634383
 20
-1066.684480095
 10
1073.7191857493
 20
-1071.6841057586
 10
1066.2846920122
 20
-1076.4066939907
 10
1058.8418856091
 20
-1080.8469702623
 10
1051.399079206
 20
-1084.9999753507
 10
1043.964585469
 20
-1088.8610708785
 10
1036.5467077799
 20
-1092.4259444942
 10
1029.1537309627
 20
-1095.6906146883
 10
1021.7939120302
 20
-1098.6514352404
 10
1014.4754709621
 20
-1101.3050992913
 10
1007.2065815241
 20
-1103.6486430364
 10
999.9953621394
 20
-1105.6794490362
 10
992.8498668207
 20
-1107.3952491391
 10
985.7780761756
 20
-1108.7941270152
 10
978.787888493
 20
-1109.8745202962
 10
971.8871109214
 20
-1110.6352223204
 10
965.0834507498
 20
-1111.0753834807
 10
958.3845067995
 20
-1111.1945121732
 10
951.7977609369
 20
-1110.9924753462
 10
945.3305697177
 20
-1110.4694986493
 10
938.9901561702
 20
-1109.6261661806
 10
932.783601728
 20
-1108.4634198351
 10
926.7178383215
 20
-1106.9825582522
 10
920.7996406353
 20
-1105.1852353656
 10
915.0356185417
 20
-1103.0734585558
 10
909.4322097188
 20
-1100.6495864085
 10
903.9956724601
 20
-1097.9163260797
 10
901.3546852189
 20
-1096.4420061682
  0
ARC
  5
BC
330
1F
100
AcDbEntity
  8
0
  6
Continuous
 62
     7
370
    25
100
AcDbCircle
 10
1390.3695443639
 20
-1015.0234581339
 30
0.0
 40
466.3493862952602
100
AcDbArc
 50
136.9068453164
 51
163.0985312163
  0
LWPOLYLINE
  5
BD
330
1F
100
AcDbEntity
  8
0
  6
Continuous
 62
     7
370
    25
100
AcDbPolyline
 90
      102
 70
   128
 43
0.0
 10
1267.3490352474
 20
-570.0386896545
 10
1272.5313066
 20
-572.2638058656
 10
1278.0708263638
 20
-575.0059663687
 10
1283.438162488
 20
-578.0547065203
 10
1288.6275071596
 20
-581.4067273819
 10
1293.6332451641
 20
-585.0584018449
 10
1298.4499599614
 20
-589.0057785556
 10
1303.0724395473
 20
-593.2445861913
 10
1307.4956820926
 20
-597.7702380813
 10
1311.7149013562
 20
-602.5778371706
 10
1315.7255318635
 20
-607.6621813186
 10
1319.5232338465
 20
-613.0177689285
 10
1323.1038979404
 20
-618.6388048996
 10
1326.4636496294
 20
-624.519206899
 10
1329.5988534399
 20
-630.6526119423
 10
1332.5061168737
 20
-637.0323832791
 10
1335.1822940791
 20
-643.6516175744
 10
1337.6244892554
 20
-650.5031523785
 10
1339.8300597857
 20
-657.5795738769
 10
1341.7966190964
 20
-664.8732249131
 10
1343.5220392404
 20
-672.3762132737
 10
1345.0044531987
 20
-680.0804202285
 10
1346.2422569012
 20
-687.9775093154
 10
1347.2341109625
 20
-696.0589353612
 10
1347.9789421307
 20
-704.3159537277
 10
1348.4759444492
 20
-712.7396297744
 10
1348.7245801286
 20
-721.320848526
 10
1348.7245801286
 20
-730.0503245357
 10
1348.4759444492
 20
-738.9186119323
 10
1347.9789421307
 20
-747.9161146417
 10
1347.2341109625
 20
-757.0330967702
 10
1346.2422569012
 20
-766.2596931395
 10
1345.0044531987
 20
-775.5859199614
 10
1343.5220392404
 20
-785.0016856408
 10
1341.7966190964
 20
-794.496801696
 10
1339.8300597857
 20
-804.0609937826
 10
1337.6244892554
 20
-813.6839128115
 10
1335.1822940791
 20
-823.3551461471
 10
1332.5061168737
 20
-833.0642288746
 10
1329.5988534399
 20
-842.8006551236
 10
1326.4636496294
 20
-852.5538894362
 10
1323.1038979404
 20
-862.3133781671
 10
1319.5232338465
 20
-872.0685609033
 10
1315.7255318635
 20
-881.8088818911
 10
1311.7149013562
 20
-891.5238014582
 10
1307.4956820926
 20
-901.2028074185
 10
1303.0724395473
 20
-910.8354264465
 10
1298.4499599614
 20
-920.4112354107
 10
1293.6332451641
 20
-929.9198726517
 10
1288.6275071596
 20
-939.3510491945
 10
1283.438162488
 20
-948.6945598814
 10
1278.0708263637
 20
-957.9402944154
 10
1272.5313066
 20
-967.0782482994
 10
1266.8255973238
 20
-976.0985336623
 10
1260.9598724905
 20
-984.991389958
 10
1254.9404792028
 20
-993.7471945272
 10
1248.7739308427
 20
-1002.3564730096
 10
1242.4669000239
 20
-1010.8099095958
 10
1236.0262113713
 20
-1019.0983571077
 10
1229.4588341366
 20
-1027.2128468962
 10
1222.7718746567
 20
-1035.1445985462
 10
1215.9725686646
 20
-1042.8850293771
 10
1209.0682734595
 20
-1050.4257637303
 10
1202.0664599461
 20
-1057.7586420319
 10
1194.9747045502
 20
-1064.875729622
 10
1187.8006810207
 20
-1071.7693253406
 10
1180.552152126
 20
-1078.4319698607
 10
1173.2369612545
 20
-1084.8564537597
 10
1165.8630239269
 20
-1091.0358253208
 10
1158.4383192318
 20
-1096.9633980546
 10
1150.9708811912
 20
-1102.632757935
 10
1143.4687900676
 20
-1108.0377703392
 10
1135.9401636202
 20
-1113.1725866859
 10
1128.3931483214
 20
-1118.0316507639
 10
1120.8359105415
 20
-1122.609704744
 10
1113.2766277122
 20
-1126.9017948688
 10
1105.723479478
 20
-1130.9032768124
 10
1098.1846388453
 20
-1134.6098207066
 10
1090.6682633391
 20
-1138.0174158253
 10
1083.1824861752
 20
-1141.122374925
 10
1075.7354074601
 20
-1143.9213382344
 10
1068.3350854263
 20
-1146.4112770899
 10
1060.989527712
 20
-1148.5894972126
 10
1053.7066826972
 20
-1150.4536416244
 10
1046.4944309024
 20
-1152.0016931974
 10
1039.3605764616
 20
-1153.2319768373
 10
1032.3128386776
 20
-1154.1431612958
 10
1025.3588436694
 20
-1154.734260611
 10
1018.50611612
 20
-1155.0046351743
 10
1011.7620711344
 20
-1154.9539924224
 10
1005.1340062158
 20
-1154.5823871542
 10
998.6290933693
 20
-1153.8902214713
 10
992.2543713414
 20
-1152.8782443427
 10
986.0167380033
 20
-1151.5475507946
 10
979.9229428874
 20
-1149.8995807256
 10
973.9795798835
 20
-1147.9361173485
 10
968.1930801039
 20
-1145.6592852606
 10
962.5697049244
 20
-1143.0715481449
 10
957.1155392094
 20
-1140.1757061045
 10
951.8364847274
 20
-1136.9748926321
 10
946.7382537648
 20
-1133.4725712198
 10
943.5020588401
 20
-1131.0188900425
  0
LWPOLYLINE
  5
BE
330
1F
100
AcDbEntity
  8
0
  6
Continuous
 62
     7
370
    25
100
AcDbPolyline
 90
      102
 70
   128
 43
0.0
 10
1331.7868761122
 20
-571.2968159212
 10
1331.8013010693
 20
-571.3051446251
 10
1337.2891252706
 20
-574.6765090682
 10
1342.5963625818
 20
-578.3479515743
 10
1347.7177754004
 20
-582.3158488729
 10
1352.6483095103
 20
-586.5762851283
 10
1357.3830990696
 20
-591.1250558044
 10
1361.9174714126
 20
-595.9576718138
 10
1366.2469516613
 20
-601.0693639478
 10
1370.3672671414
 20
-606.4550875834
 10
1374.2743515989
 20
-612.1095276617
 10
1377.9643492133
 20
-618.027103933
 10
1381.4336184022
 20
-624.2019764639
 10
1384.678735416
 20
-630.6280514007
 10
1387.6964977159
 20
-637.2989869834
 10
1390.4839271348
 20
-644.2081998038
 10
1393.0382728165
 20
-651.3488713031
 10
1395.3570139301
 20
-658.7139545006
 10
1397.4378621582
 20
-666.2961809484
 10
1399.2787639547
 20
-674.0880679044
 10
1400.8779025718
 20
-682.081925717
 10
1402.2336998528
 20
-690.2698654135
 10
1403.3448177894
 20
-698.643806486
 10
1404.2101598424
 20
-707.1954848657
 10
1404.8288720237
 20
-715.9164610784
 10
1405.200343739
 20
-724.7981285736
 10
1405.3242083905
 20
-733.8317222178
 10
1405.200343739
 20
-743.0083269446
 10
1404.8288720237
 20
-752.318886553
 10
1404.2101598424
 20
-761.7542126449
 10
1403.3448177894
 20
-771.3049936925
 10
1402.2336998528
 20
-780.961804228
 10
1400.8779025718
 20
-790.7151141453
 10
1399.2787639547
 20
-800.5552981049
 10
1397.4378621582
 20
-810.4726450335
 10
1395.3570139301
 20
-820.4573677069
 10
1393.0382728165
 20
-830.4996124092
 10
1390.4839271348
 20
-840.5894686574
 10
1387.6964977159
 20
-850.7169789816
 10
1384.678735416
 20
-860.8721487516
 10
1381.4336184022
 20
-871.0449560411
 10
1377.9643492133
 20
-881.2253615175
 10
1374.2743515989
 20
-891.4033183495
 10
1370.3672671414
 20
-901.5687821226
 10
1366.2469516613
 20
-911.7117207514
 10
1361.9174714126
 20
-921.82212438
 10
1357.3830990696
 20
-931.8900152606
 10
1352.6483095103
 20
-941.9054576005
 10
1347.7177754004
 20
-951.8585673673
 10
1342.5963625818
 20
-961.7395220433
 10
1337.2891252706
 20
-971.5385703191
 10
1331.8013010693
 20
-981.2460417171
 10
1326.1383057979
 20
-990.8523561352
 10
1320.3057281489
 20
-1000.3480333007
 10
1314.3093241723
 20
-1009.7237021267
 10
1308.155011595
 20
-1018.97010996
 10
1301.8488639803
 20
-1028.0781317124
 10
1295.3971047347
 20
-1037.0387788661
 10
1288.8061009655
 20
-1045.8432083442
 10
1282.0823571979
 20
-1054.4827312376
 10
1275.232508955
 20
-1062.9488213805
 10
1268.2633162101
 20
-1071.233123764
 10
1261.1816567151
 20
-1079.3274627817
 10
1253.9945192129
 20
-1087.2238502983
 10
1246.7089965405
 20
-1094.9144935327
 10
1239.3322786292
 20
-1102.3918027486
 10
1231.871645409
 20
-1109.6483987443
 10
1224.334459624
 20
-1116.6771201359
 10
1216.7281595668
 20
-1123.4710304238
 10
1209.0602517371
 20
-1130.0234248389
 10
1201.3383034343
 20
-1136.327836959
 10
1193.5699352889
 20
-1142.3780450904
 10
1185.7628137426
 20
-1148.1680784082
 10
1177.9246434816
 20
-1153.6922228485
 10
1170.0631598338
 20
-1158.9450267476
 10
1162.1861211343
 20
-1163.9213062224
 10
1154.3013010693
 20
-1168.6161502858
 10
1146.4164810043
 20
-1173.0249256934
 10
1138.5394423048
 20
-1177.1432815163
 10
1130.677958657
 20
-1180.9671534345
 10
1122.839788396
 20
-1184.492767748
 10
1115.0326668497
 20
-1187.7166451012
 10
1107.2642987043
 20
-1190.6356039163
 10
1099.5423504015
 20
-1193.2467635334
 10
1091.8744425718
 20
-1195.5475470533
 10
1084.2681425146
 20
-1197.5356838803
 10
1076.7309567296
 20
-1199.2092119634
 10
1069.2703235094
 20
-1200.5664797325
 10
1061.8936055981
 20
-1201.6061477281
 10
1054.6080829257
 20
-1202.3271899235
 10
1047.4209454235
 20
-1202.7288947371
 10
1040.3392859285
 20
-1202.8108657346
 10
1033.3700931836
 20
-1202.5730220207
 10
1026.5202449407
 20
-1202.0155983183
 10
1019.7965011731
 20
-1201.1391447374
 10
1013.2054974039
 20
-1199.9445262318
 10
1006.7537381583
 20
-1198.4329217458
 10
1000.4475905436
 20
-1196.6058230504
 10
994.2932779663
 20
-1194.4650332716
 10
988.2968739897
 20
-1192.0126651103
 10
982.4642963408
 20
-1189.2511387579
 10
976.8157260264
 20
-1186.1915082115
  0
LWPOLYLINE
  5
BF
330
1F
100
AcDbEntity
  8
0
  6
Continuous
 62
     7
370
    25
100
AcDbPolyline
 90
      133
 70
   128
 43
0.0
 10
1194.5729832016
 20
-538.2716920604
 10
1196.5163063496
 20
-537.8689093737
 10
1203.9769395699
 20
-536.5116416046
 10
1211.3536574812
 20
-535.4719736089
 10
1218.6391801536
 20
-534.7509314136
 10
1225.8263176558
 20
-534.3492266
 10
1232.9079771508
 20
-534.2672556025
 10
1239.8771698957
 20
-534.5050993164
 10
1246.7270181386
 20
-535.0625230187
 10
1253.4507619062
 20
-535.9389765997
 10
1260.0417656754
 20
-537.1335951052
 10
1266.493524921
 20
-538.6451995913
 10
1272.7996725356
 20
-540.4722982866
 10
1278.953985113
 20
-542.6130880655
 10
1284.9503890895
 20
-545.0654562267
 10
1290.7829667385
 20
-547.8269825791
 10
1296.44596201
 20
-550.8949418296
 10
1301.9337862113
 20
-554.2663062727
 10
1307.2410235225
 20
-557.9377487787
 10
1312.3624363411
 20
-561.9056460773
 10
1317.292970451
 20
-566.1660823327
 10
1322.0277600103
 20
-570.7148530089
 10
1326.5621323533
 20
-575.5474690182
 10
1330.891612602
 20
-580.6591611522
 10
1335.0119280821
 20
-586.0448847878
 10
1338.9190125396
 20
-591.6993248661
 10
1342.6090101539
 20
-597.6169011374
 10
1346.0782793429
 20
-603.7917736683
 10
1349.3233963567
 20
-610.2178486051
 10
1352.3411586566
 20
-616.8887841878
 10
1355.1285880755
 20
-623.7979970082
 10
1357.6829337572
 20
-630.9386685075
 10
1360.0016748708
 20
-638.303751705
 10
1362.0825230989
 20
-645.8859781529
 10
1363.9234248954
 20
-653.6778651089
 10
1365.5225635125
 20
-661.6717229214
 10
1366.8783607934
 20
-669.8596626179
 10
1367.9894787301
 20
-678.2336036904
 10
1368.8548207831
 20
-686.7852820701
 10
1369.4735329643
 20
-695.5062582829
 10
1369.8450046796
 20
-704.3879257781
 10
1369.9688693312
 20
-713.4215194222
 10
1369.8450046796
 20
-722.598124149
 10
1369.4735329643
 20
-731.9086837575
 10
1368.8548207831
 20
-741.3440098493
 10
1367.9894787301
 20
-750.8947908969
 10
1366.8783607934
 20
-760.5516014324
 10
1365.5225635125
 20
-770.3049113497
 10
1363.9234248954
 20
-780.1450953094
 10
1362.0825230989
 20
-790.0624422379
 10
1360.0016748708
 20
-800.0471649113
 10
1357.6829337572
 20
-810.0894096136
 10
1355.1285880755
 20
-820.1792658619
 10
1352.3411586566
 20
-830.306776186
 10
1349.3233963567
 20
-840.4619459561
 10
1346.0782793429
 20
-850.6347532456
 10
1342.6090101539
 20
-860.8151587219
 10
1338.9190125396
 20
-870.9931155539
 10
1335.0119280821
 20
-881.158579327
 10
1330.891612602
 20
-891.3015179558
 10
1326.5621323533
 20
-901.4119215844
 10
1322.0277600103
 20
-911.479812465
 10
1317.292970451
 20
-921.495254805
 10
1312.3624363411
 20
-931.4483645717
 10
1307.2410235225
 20
-941.3293192477
 10
1301.9337862113
 20
-951.1283675235
 10
1296.44596201
 20
-960.8358389216
 10
1290.7829667385
 20
-970.4421533396
 10
1284.9503890895
 20
-979.9378305051
 10
1278.953985113
 20
-989.3134993311
 10
1272.7996725356
 20
-998.5599071644
 10
1266.493524921
 20
-1007.6679289168
 10
1260.0417656754
 20
-1016.6285760705
 10
1253.4507619062
 20
-1025.4330055486
 10
1246.7270181385
 20
-1034.0725284421
 10
1239.8771698957
 20
-1042.538618585
 10
1232.9079771508
 20
-1050.8229209684
 10
1225.8263176558
 20
-1058.9172599861
 10
1218.6391801536
 20
-1066.8136475028
 10
1211.3536574812
 20
-1074.5042907372
 10
1203.9769395699
 20
-1081.981599953
 10
1196.5163063496
 20
-1089.2381959488
 10
1188.9791205647
 20
-1096.2669173403
 10
1181.3728205075
 20
-1103.0608276283
 10
1173.7049126778
 20
-1109.6132220434
 10
1165.982964375
 20
-1115.9176341634
 10
1158.2145962296
 20
-1121.9678422948
 10
1150.4074746833
 20
-1127.7578756126
 10
1142.5693044223
 20
-1133.2820200529
 10
1134.7078207744
 20
-1138.5348239521
 10
1126.8307820749
 20
-1143.5111034268
 10
1118.94596201
 20
-1148.2059474902
 10
1111.061141945
 20
-1152.6147228978
 10
1103.1841032455
 20
-1156.7330787207
 10
1095.3226195977
 20
-1160.5569506389
 10
1087.4844493367
 20
-1164.0825649524
 10
1079.6773277903
 20
-1167.3064423056
 10
1071.908959645
 20
-1170.2254011207
 10
1064.1870113421
 20
-1172.8365607379
 10
1056.5191035125
 20
-1175.1373442577
 10
1048.9128034552
 20
-1177.1254810847
 10
1041.3756176703
 20
-1178.7990091678
 10
1033.9149844501
 20
-1180.1562769369
 10
1026.5382665387
 20
-1181.1959449326
 10
1019.2527438663
 20
-1181.9169871279
 10
1012.0656063641
 20
-1182.3186919415
 10
1004.9839468691
 20
-1182.400662939
 10
998.0147541243
 20
-1182.1628192251
 10
991.1649058814
 20
-1181.6053955228
 10
984.4411621137
 20
-1180.7289419418
 10
977.8501583446
 20
-1179.5343234363
 10
971.398399099
 20
-1178.0227189502
 10
965.0922514843
 20
-1176.1956202549
 10
958.937938907
 20
-1174.054830476
 10
952.9415349304
 20
-1171.6024623148
 10
947.1089572814
 20
-1168.8409359624
 10
941.44596201
 20
-1165.7729767119
 10
935.9581378087
 20
-1162.4016122688
 10
930.6509004975
 20
-1158.7301697628
 10
925.5294876789
 20
-1154.7622724642
 10
920.598953569
 20
-1150.5018362088
 10
915.8641640097
 20
-1145.9530655326
 10
911.3297916667
 20
-1141.1204495233
 10
907.000311418
 20
-1136.0087573893
 10
902.8799959379
 20
-1130.6230337537
 10
898.9729114804
 20
-1124.9685936754
 10
895.282913866
 20
-1119.0510174041
 10
891.8136446771
 20
-1112.8761448732
 10
888.5685276633
 20
-1106.4500699364
 10
885.5507653634
 20
-1099.7791343537
 10
882.7633359445
 20
-1092.8699215333
 10
880.2089902628
 20
-1085.729250034
 10
879.5985824212
 20
-1083.8824753602
  0
ENDSEC
  0
SECTION
  2
OBJECTS
  0
DICTIONARY
  5
C
330
0
100
AcDbDictionary
281
     1
  3
ACAD_GROUP
350
D
  3
ACAD_LAYOUT
350
1A
  3
ACAD_MLINESTYLE
350
17
  3
ACAD_PLOTSETTINGS
350
19
  3
ACAD_PLOTSTYLENAME
350
E
  3
ACAD_SCALELIST
350
47
  0
DICTIONARY
  5
D
102
{ACAD_REACTORS
330
C
102
}
330
C
100
AcDbDictionary
281
     1
  0
DICTIONARY
  5
1A
102
{ACAD_REACTORS
330
C
102
}
330
C
100
AcDbDictionary
281
     1
  3
Layout1
350
1E
  3
Layout2
350
26
  3
Model
350
22
  0
DICTIONARY
  5
17
102
{ACAD_REACTORS
330
C
102
}
330
C
100
AcDbDictionary
281
     1
  3
Standard
350
18
  0
DICTIONARY
  5
19
102
{ACAD_REACTORS
330
C
102
}
330
C
100
AcDbDictionary
281
     1
  0
ACDBDICTIONARYWDFLT
  5
E
102
{ACAD_REACTORS
330
C
102
}
330
C
100
AcDbDictionary
281
     1
  3
Normal
350
F
100
AcDbDictionaryWithDefault
340
F
  0
DICTIONARY
  5
47
102
{ACAD_REACTORS
330
C
102
}
330
C
100
AcDbDictionary
281
     1
  3
A0
350
48
  3
A1
350
49
  3
A2
350
4A
  3
A3
350
4B
  3
A4
350
4C
  3
A5
350
4D
  3
A6
350
4E
  3
A7
350
4F
  3
A8
350
50
  3
A9
350
51
  3
B0
350
52
  3
B1
350
53
  3
B2
350
54
  3
B3
350
55
  3
B4
350
56
  3
B5
350
57
  3
B6
350
58
  3
B7
350
59
  3
B8
350
5A
  3
B9
350
5B
  3
C0
350
5C
  3
C1
350
5D
  3
C2
350
5E
  3
C3
350
5F
  3
C4
350
60
  3
C5
350
61
  3
C6
350
62
  3
C7
350
63
  3
C8
350
64
  3
C9
350
65
  3
D0
350
66
  3
D1
350
67
  3
D2
350
68
  0
LAYOUT
  5
1E
102
{ACAD_REACTORS
330
1A
102
}
330
1A
100
AcDbPlotSettings
  1

  2
none_device
  4

  6

 40
0.0
 41
0.0
 42
0.0
 43
0.0
 44
0.0
 45
0.0
 46
0.0
 47
0.0
 48
0.0
 49
0.0
140
0.0
141
0.0
142
1.0
143
1.0
 70
   688
 72
     1
 73
     0
 74
     5
  7

 75
    16
147
1.0
148
0.0
149
0.0
100
AcDbLayout
  1
Layout1
 70
     1
 71
     1
 10
0.0
 20
0.0
 11
420.0
 21
297.0
 12
0.0
 22
0.0
 32
0.0
 14
1.0000000000E+20
 24
1.0000000000E+20
 34
1.0000000000E+20
 15
-1.0000000000E+20
 25
-1.0000000000E+20
 35
-1.0000000000E+20
146
0.0
 13
0.0
 23
0.0
 33
0.0
 16
1.0
 26
0.0
 36
0.0
 17
0.0
 27
1.0
 37
0.0
 76
     0
330
1B
  0
LAYOUT
  5
26
102
{ACAD_REACTORS
330
1A
102
}
330
1A
100
AcDbPlotSettings
  1

  2
none_device
  4

  6

 40
0.0
 41
0.0
 42
0.0
 43
0.0
 44
0.0
 45
0.0
 46
0.0
 47
0.0
 48
0.0
 49
0.0
140
0.0
141
0.0
142
1.0
143
1.0
 70
   688
 72
     1
 73
     0
 74
     5
  7

 75
    16
147
1.0
148
0.0
149
0.0
100
AcDbLayout
  1
Layout2
 70
     1
 71
     2
 10
0.0
 20
0.0
 11
0.0
 21
0.0
 12
0.0
 22
0.0
 32
0.0
 14
0.0
 24
0.0
 34
0.0
 15
0.0
 25
0.0
 35
0.0
146
0.0
 13
0.0
 23
0.0
 33
0.0
 16
1.0
 26
0.0
 36
0.0
 17
0.0
 27
1.0
 37
0.0
 76
     0
330
23
  0
LAYOUT
  5
22
102
{ACAD_REACTORS
330
1A
102
}
330
1A
100
AcDbPlotSettings
  1

  2
none_device
  4
Letter_(8.50_x_11.00_Inches)
  6

 40
6.35
 41
6.35
 42
6.35000508
 43
6.35000508
 44
215.9
 45
279.4
 46
0.0
 47
0.0
 48
0.0
 49
0.0
140
0.0
141
0.0
142
1.0
143
1.0
 70
  1712
 72
     1
 73
     0
 74
     0
  7

 75
     0
147
1.0
148
0.0
149
0.0
100
AcDbLayout
  1
Model
 70
     1
 71
     0
 10
0.0
 20
0.0
 11
279.4
 21
215.9
 12
0.0
 22
0.0
 32
0.0
 14
0.0
 24
0.0
 34
0.0
 15
279.4
 25
215.9
 35
0.0
146
0.0
 13
0.0
 23
0.0
 33
0.0
 16
1.0
 26
0.0
 36
0.0
 17
0.0
 27
1.0
 37
0.0
 76
     0
330
1F
331
29
  0
MLINESTYLE
  5
18
102
{ACAD_REACTORS
330
17
102
}
330
17
100
AcDbMlineStyle
  2
Standard
 70
     0
  3

 62
   256
 51
90.0
 52
90.0
 71
     2
 49
0.5
 62
   256
  6
BYLAYER
 49
-0.5
 62
   256
  6
BYLAYER
  0
ACDBPLACEHOLDER
  5
F
102
{ACAD_REACTORS
330
E
102
}
330
E
  0
SCALE
  5
48
102
{ACAD_REACTORS
330
47
102
}
330
47
100
AcDbScale
 70
     0
300
1:1
140
1.0
141
1.0
290
     1
  0
SCALE
  5
49
102
{ACAD_REACTORS
330
47
102
}
330
47
100
AcDbScale
 70
     0
300
1:2
140
1.0
141
2.0
290
     0
  0
SCALE
  5
4A
102
{ACAD_REACTORS
330
47
102
}
330
47
100
AcDbScale
 70
     0
300
1:4
140
1.0
141
4.0
290
     0
  0
SCALE
  5
4B
102
{ACAD_REACTORS
330
47
102
}
330
47
100
AcDbScale
 70
     0
300
1:5
140
1.0
141
5.0
290
     0
  0
SCALE
  5
4C
102
{ACAD_REACTORS
330
47
102
}
330
47
100
AcDbScale
 70
     0
300
1:8
140
1.0
141
8.0
290
     0
  0
SCALE
  5
4D
102
{ACAD_REACTORS
330
47
102
}
330
47
100
AcDbScale
 70
     0
300
1:10
140
1.0
141
10.0
290
     0
  0
SCALE
  5
4E
102
{ACAD_REACTORS
330
47
102
}
330
47
100
AcDbScale
 70
     0
300
1:16
140
1.0
141
16.0
290
     0
  0
SCALE
  5
4F
102
{ACAD_REACTORS
330
47
102
}
330
47
100
AcDbScale
 70
     0
300
1:20
140
1.0
141
20.0
290
     0
  0
SCALE
  5
50
102
{ACAD_REACTORS
330
47
102
}
330
47
100
AcDbScale
 70
     0
300
1:30
140
1.0
141
30.0
290
     0
  0
SCALE
  5
51
102
{ACAD_REACTORS
330
47
102
}
330
47
100
AcDbScale
 70
     0
300
1:40
140
1.0
141
40.0
290
     0
  0
SCALE
  5
52
102
{ACAD_REACTORS
330
47
102
}
330
47
100
AcDbScale
 70
     0
300
1:50
140
1.0
141
50.0
290
     0
  0
SCALE
  5
53
102
{ACAD_REACTORS
330
47
102
}
330
47
100
AcDbScale
 70
     0
300
1:100
140
1.0
141
100.0
290
     0
  0
SCALE
  5
54
102
{ACAD_REACTORS
330
47
102
}
330
47
100
AcDbScale
 70
     0
300
2:1
140
2.0
141
1.0
290
     0
  0
SCALE
  5
55
102
{ACAD_REACTORS
330
47
102
}
330
47
100
AcDbScale
 70
     0
300
4:1
140
4.0
141
1.0
290
     0
  0
SCALE
  5
56
102
{ACAD_REACTORS
330
47
102
}
330
47
100
AcDbScale
 70
     0
300
8:1
140
8.0
141
1.0
290
     0
  0
SCALE
  5
57
102
{ACAD_REACTORS
330
47
102
}
330
47
100
AcDbScale
 70
     0
300
10:1
140
10.0
141
1.0
290
     0
  0
SCALE
  5
58
102
{ACAD_REACTORS
330
47
102
}
330
47
100
AcDbScale
 70
     0
300
100:1
140
100.0
141
1.0
290
     0
  0
SCALE
  5
59
102
{ACAD_REACTORS
330
47
102
}
330
47
100
AcDbScale
 70
     0
300
1/128" = 1'-0"
140
0.0078125
141
12.0
290
     0
  0
SCALE
  5
5A
102
{ACAD_REACTORS
330
47
102
}
330
47
100
AcDbScale
 70
     0
300
1/64" = 1'-0"
140
0.015625
141
12.0
290
     0
  0
SCALE
  5
5B
102
{ACAD_REACTORS
330
47
102
}
330
47
100
AcDbScale
 70
     0
300
1/32" = 1'-0"
140
0.03125
141
12.0
290
     0
  0
SCALE
  5
5C
102
{ACAD_REACTORS
330
47
102
}
330
47
100
AcDbScale
 70
     0
300
1/16" = 1'-0"
140
0.0625
141
12.0
290
     0
  0
SCALE
  5
5D
102
{ACAD_REACTORS
330
47
102
}
330
47
100
AcDbScale
 70
     0
300
3/32" = 1'-0"
140
0.09375
141
12.0
290
     0
  0
SCALE
  5
5E
102
{ACAD_REACTORS
330
47
102
}
330
47
100
AcDbScale
 70
     0
300
1/8" = 1'-0"
140
0.125
141
12.0
290
     0
  0
SCALE
  5
5F
102
{ACAD_REACTORS
330
47
102
}
330
47
100
AcDbScale
 70
     0
300
3/16" = 1'-0"
140
0.1875
141
12.0
290
     0
  0
SCALE
  5
60
102
{ACAD_REACTORS
330
47
102
}
330
47
100
AcDbScale
 70
     0
300
1/4" = 1'-0"
140
0.25
141
12.0
290
     0
  0
SCALE
  5
61
102
{ACAD_REACTORS
330
47
102
}
330
47
100
AcDbScale
 70
     0
300
3/8" = 1'-0"
140
0.375
141
12.0
290
     0
  0
SCALE
  5
62
102
{ACAD_REACTORS
330
47
102
}
330
47
100
AcDbScale
 70
     0
300
1/2" = 1'-0"
140
0.5
141
12.0
290
     0
  0
SCALE
  5
63
102
{ACAD_REACTORS
330
47
102
}
330
47
100
AcDbScale
 70
     0
300
3/4" = 1'-0"
140
0.75
141
12.0
290
     0
  0
SCALE
  5
64
102
{ACAD_REACTORS
330
47
102
}
330
47
100
AcDbScale
 70
     0
300
1" = 1'-0"
140
1.0
141
12.0
290
     0
  0
SCALE
  5
65
102
{ACAD_REACTORS
330
47
102
}
330
47
100
AcDbScale
 70
     0
300
1-1/2" = 1'-0"
140
1.5
141
12.0
290
     0
  0
SCALE
  5
66
102
{ACAD_REACTORS
330
47
102
}
330
47
100
AcDbScale
 70
     0
300
3" = 1'-0"
140
3.0
141
12.0
290
     0
  0
SCALE
  5
67
102
{ACAD_REACTORS
330
47
102
}
330
47
100
AcDbScale
 70
     0
300
6" = 1'-0"
140
6.0
141
12.0
290
     0
  0
SCALE
  5
68
102
{ACAD_REACTORS
330
47
102
}
330
47
100
AcDbScale
 70
     0
300
1'-0" = 1'-0"
140
12.0
141
12.0
290
     0
  0
ENDSEC
  0
EOF
